Аккорды, минусовки

Перейти вниз

Аккорды, минусовки

Сообщение  Багира в Вс Сен 28, 2008 2:27 pm

Exclamation
avatar
Багира
Admin

Женщина Количество сообщений : 262
Возраст : 25
Географическое положение : Россия, Серероморск
Дата регистрации : 2008-09-22

Посмотреть профиль http://vkontakte.ru/id6121107

Вернуться к началу Перейти вниз

Вступление "Сид и Нэнси"

Сообщение  Багира в Вс Сен 28, 2008 2:32 pm

Em Em7/D
|---------------------------|--------------------------|
|--------0-----1--0-----0--|--------0-----1--0-----0--|
|---------------------------|--------------------------|
|--2--2-----2--------2-----|--0--0-----0--------0-----|
|---------------------------|--------------------------|
|---------------------------|--------------------------|

C+7 D H7/D#
|---------------------------|---------------------------|
|--------0-----1--0-----0--|---------------------------|
|---------------------------|--------2--0--------2--0--|
|---------------------------|--0--0--------1--1--------|
|--3--3-----3--------3-----|---------------------------|
|---------------------------|---------------------------|
avatar
Багира
Admin

Женщина Количество сообщений : 262
Возраст : 25
Географическое положение : Россия, Серероморск
Дата регистрации : 2008-09-22

Посмотреть профиль http://vkontakte.ru/id6121107

Вернуться к началу Перейти вниз

Вернуться к началу


 
Права доступа к этому форуму:
Вы не можете отвечать на сообщения